ISO-10303-21;
HEADER;
/* Generated by software containing ST-Developer
 * from STEP Tools, Inc. (www.steptools.com) 
 */

FILE_DESCRIPTION(
/* description */ (
'\X2\0422044004430431044B\X0\ \X2\044104420430043B044C043D044B0435\X0\ 
\X2\043E04460438043D043A043E04320430043D043D044B0435\X0\ \X2\044D043B0435043A04420440043E0441043204300440043D044B0435\X0\ 
\X2\043F0440044F043C043E0448043E0432043D044B0435\X0\ \X2\04420438043F0430\X0\ 
\X2\0422\X0\'),
/* implementation_level */ '2;1');

FILE_NAME(
/* name */ '',
/* time_stamp */ '2025-06-26T10:22:10+07:00',
/* author */ ('zeta-72'),
/* organization */ ('\X2\0410041E\X0\ "\X2\0417042D04220410\X0\"'),
/* preprocessor_version */ 'ST-DEVELOPER v19.2',
/* originating_system */ 'Autodesk Inventor 2024',
/* authorisation */ '\X2\0421043E0440043E043A0438043D\X0\ \X2\0418\X0\.
\X2\041D\X0\.');

FILE_SCHEMA (('AUTOMOTIVE_DESIGN { 1 0 10303 214 3 1 1 }'));
ENDSEC;

DATA;
#10=MECHANICAL_DESIGN_GEOMETRIC_PRESENTATION_REPRESENTATION('',(#143,#144,
#145,#146,#147,#148,#149,#150,#151,#152,#153),#298);
#11=SHAPE_REPRESENTATION_RELATIONSHIP('SRR','None',#305,#12);
#12=ADVANCED_BREP_SHAPE_REPRESENTATION('',(#13,#14),#297);
#13=MANIFOLD_SOLID_BREP('\X2\04220432043504400434043E0435\X0\ \X2\04420435043B043E\X0\1',
#164);
#14=MANIFOLD_SOLID_BREP('\X2\04220432043504400434043E0435\X0\ \X2\04420435043B043E\X0\2',
#165);
#15=FACE_BOUND('',#36,.T.);
#16=FACE_BOUND('',#38,.T.);
#17=PLANE('',#194);
#18=PLANE('',#195);
#19=PLANE('',#199);
#20=PLANE('',#203);
#21=PLANE('',#204);
#22=PLANE('',#205);
#23=FACE_OUTER_BOUND('',#33,.T.);
#24=FACE_OUTER_BOUND('',#34,.T.);
#25=FACE_OUTER_BOUND('',#35,.T.);
#26=FACE_OUTER_BOUND('',#37,.T.);
#27=FACE_OUTER_BOUND('',#39,.T.);
#28=FACE_OUTER_BOUND('',#40,.T.);
#29=FACE_OUTER_BOUND('',#41,.T.);
#30=FACE_OUTER_BOUND('',#42,.T.);
#31=FACE_OUTER_BOUND('',#43,.T.);
#32=FACE_OUTER_BOUND('',#44,.T.);
#33=EDGE_LOOP('',(#103,#104,#105,#106));
#34=EDGE_LOOP('',(#107,#108,#109,#110));
#35=EDGE_LOOP('',(#111));
#36=EDGE_LOOP('',(#112));
#37=EDGE_LOOP('',(#113));
#38=EDGE_LOOP('',(#114));
#39=EDGE_LOOP('',(#115,#116,#117,#118));
#40=EDGE_LOOP('',(#119,#120,#121,#122));
#41=EDGE_LOOP('',(#123,#124,#125,#126));
#42=EDGE_LOOP('',(#127,#128,#129,#130));
#43=EDGE_LOOP('',(#131,#132,#133,#134));
#44=EDGE_LOOP('',(#135,#136,#137,#138));
#45=LINE('',#259,#55);
#46=LINE('',#265,#56);
#47=LINE('',#274,#57);
#48=LINE('',#277,#58);
#49=LINE('',#280,#59);
#50=LINE('',#282,#60);
#51=LINE('',#283,#61);
#52=LINE('',#289,#62);
#53=LINE('',#291,#63);
#54=LINE('',#292,#64);
#55=VECTOR('',#212,18.8);
#56=VECTOR('',#219,20.);
#57=VECTOR('',#230,10.);
#58=VECTOR('',#233,10.);
#59=VECTOR('',#236,10.);
#60=VECTOR('',#237,10.);
#61=VECTOR('',#238,10.);
#62=VECTOR('',#245,10.);
#63=VECTOR('',#248,10.);
#64=VECTOR('',#249,10.);
#65=CIRCLE('',#189,18.8);
#66=CIRCLE('',#190,18.8);
#67=CIRCLE('',#192,20.);
#68=CIRCLE('',#193,20.);
#69=CIRCLE('',#197,20.);
#70=CIRCLE('',#198,20.);
#71=CIRCLE('',#201,0.145655582971997);
#72=CIRCLE('',#202,0.145655582971997);
#73=VERTEX_POINT('',#256);
#74=VERTEX_POINT('',#258);
#75=VERTEX_POINT('',#262);
#76=VERTEX_POINT('',#264);
#77=VERTEX_POINT('',#270);
#78=VERTEX_POINT('',#271);
#79=VERTEX_POINT('',#273);
#80=VERTEX_POINT('',#275);
#81=VERTEX_POINT('',#279);
#82=VERTEX_POINT('',#281);
#83=VERTEX_POINT('',#285);
#84=VERTEX_POINT('',#287);
#85=EDGE_CURVE('',#73,#73,#65,.T.);
#86=EDGE_CURVE('',#73,#74,#45,.T.);
#87=EDGE_CURVE('',#74,#74,#66,.T.);
#88=EDGE_CURVE('',#75,#75,#67,.T.);
#89=EDGE_CURVE('',#75,#76,#46,.T.);
#90=EDGE_CURVE('',#76,#76,#68,.T.);
#91=EDGE_CURVE('',#77,#78,#69,.T.);
#92=EDGE_CURVE('',#77,#79,#47,.T.);
#93=EDGE_CURVE('',#80,#79,#70,.T.);
#94=EDGE_CURVE('',#78,#80,#48,.T.);
#95=EDGE_CURVE('',#78,#81,#49,.T.);
#96=EDGE_CURVE('',#82,#80,#50,.T.);
#97=EDGE_CURVE('',#81,#82,#51,.T.);
#98=EDGE_CURVE('',#81,#83,#71,.T.);
#99=EDGE_CURVE('',#84,#82,#72,.T.);
#100=EDGE_CURVE('',#83,#84,#52,.T.);
#101=EDGE_CURVE('',#83,#77,#53,.T.);
#102=EDGE_CURVE('',#79,#84,#54,.T.);
#103=ORIENTED_EDGE('',*,*,#85,.F.);
#104=ORIENTED_EDGE('',*,*,#86,.T.);
#105=ORIENTED_EDGE('',*,*,#87,.T.);
#106=ORIENTED_EDGE('',*,*,#86,.F.);
#107=ORIENTED_EDGE('',*,*,#88,.F.);
#108=ORIENTED_EDGE('',*,*,#89,.T.);
#109=ORIENTED_EDGE('',*,*,#90,.T.);
#110=ORIENTED_EDGE('',*,*,#89,.F.);
#111=ORIENTED_EDGE('',*,*,#88,.T.);
#112=ORIENTED_EDGE('',*,*,#85,.T.);
#113=ORIENTED_EDGE('',*,*,#90,.F.);
#114=ORIENTED_EDGE('',*,*,#87,.F.);
#115=ORIENTED_EDGE('',*,*,#91,.F.);
#116=ORIENTED_EDGE('',*,*,#92,.T.);
#117=ORIENTED_EDGE('',*,*,#93,.F.);
#118=ORIENTED_EDGE('',*,*,#94,.F.);
#119=ORIENTED_EDGE('',*,*,#95,.F.);
#120=ORIENTED_EDGE('',*,*,#94,.T.);
#121=ORIENTED_EDGE('',*,*,#96,.F.);
#122=ORIENTED_EDGE('',*,*,#97,.F.);
#123=ORIENTED_EDGE('',*,*,#98,.F.);
#124=ORIENTED_EDGE('',*,*,#97,.T.);
#125=ORIENTED_EDGE('',*,*,#99,.F.);
#126=ORIENTED_EDGE('',*,*,#100,.F.);
#127=ORIENTED_EDGE('',*,*,#101,.F.);
#128=ORIENTED_EDGE('',*,*,#100,.T.);
#129=ORIENTED_EDGE('',*,*,#102,.F.);
#130=ORIENTED_EDGE('',*,*,#92,.F.);
#131=ORIENTED_EDGE('',*,*,#101,.T.);
#132=ORIENTED_EDGE('',*,*,#91,.T.);
#133=ORIENTED_EDGE('',*,*,#95,.T.);
#134=ORIENTED_EDGE('',*,*,#98,.T.);
#135=ORIENTED_EDGE('',*,*,#102,.T.);
#136=ORIENTED_EDGE('',*,*,#99,.T.);
#137=ORIENTED_EDGE('',*,*,#96,.T.);
#138=ORIENTED_EDGE('',*,*,#93,.T.);
#139=CYLINDRICAL_SURFACE('',#188,18.8);
#140=CYLINDRICAL_SURFACE('',#191,20.);
#141=CYLINDRICAL_SURFACE('',#196,20.);
#142=CYLINDRICAL_SURFACE('',#200,0.145655582971997);
#143=STYLED_ITEM('',(#315),#154);
#144=STYLED_ITEM('',(#315),#155);
#145=STYLED_ITEM('',(#315),#156);
#146=STYLED_ITEM('',(#314),#13);
#147=STYLED_ITEM('',(#315),#158);
#148=STYLED_ITEM('',(#315),#159);
#149=STYLED_ITEM('',(#315),#160);
#150=STYLED_ITEM('',(#315),#161);
#151=STYLED_ITEM('',(#315),#162);
#152=STYLED_ITEM('',(#315),#163);
#153=STYLED_ITEM('',(#314),#14);
#154=ADVANCED_FACE('',(#23),#139,.F.);
#155=ADVANCED_FACE('',(#24),#140,.T.);
#156=ADVANCED_FACE('',(#25,#15),#17,.T.);
#157=ADVANCED_FACE('',(#26,#16),#18,.F.);
#158=ADVANCED_FACE('',(#27),#141,.T.);
#159=ADVANCED_FACE('',(#28),#19,.T.);
#160=ADVANCED_FACE('',(#29),#142,.T.);
#161=ADVANCED_FACE('',(#30),#20,.T.);
#162=ADVANCED_FACE('',(#31),#21,.T.);
#163=ADVANCED_FACE('',(#32),#22,.F.);
#164=CLOSED_SHELL('',(#154,#155,#156,#157));
#165=CLOSED_SHELL('',(#158,#159,#160,#161,#162,#163));
#166=DERIVED_UNIT_ELEMENT(#169,1.);
#167=DERIVED_UNIT_ELEMENT(#300,-3.);
#168=DIMENSIONAL_EXPONENTS(0.,1.,0.,0.,0.,0.,0.);
#169=(
CONVERSION_BASED_UNIT('gram',#171)
MASS_UNIT()
NAMED_UNIT(#168)
);
#170=(
MASS_UNIT()
NAMED_UNIT(*)
SI_UNIT(.KILO.,.GRAM.)
);
#171=MASS_MEASURE_WITH_UNIT(MASS_MEASURE(0.001),#170);
#172=DERIVED_UNIT((#166,#167));
#173=MEASURE_REPRESENTATION_ITEM('density measure',
POSITIVE_RATIO_MEASURE(7.85),#172);
#174=PROPERTY_DEFINITION_REPRESENTATION(#179,#176);
#175=PROPERTY_DEFINITION_REPRESENTATION(#180,#177);
#176=REPRESENTATION('material name',(#178),#297);
#177=REPRESENTATION('density',(#173),#297);
#178=DESCRIPTIVE_REPRESENTATION_ITEM('\X2\042104420430043B044C\X0\',
'\X2\042104420430043B044C\X0\');
#179=PROPERTY_DEFINITION('material property','material name',#307);
#180=PROPERTY_DEFINITION('material property','density of part',#307);
#181=DATE_TIME_ROLE('creation_date');
#182=APPLIED_DATE_AND_TIME_ASSIGNMENT(#183,#181,(#307));
#183=DATE_AND_TIME(#184,#185);
#184=CALENDAR_DATE(2024,10,10);
#185=LOCAL_TIME(0,0,0.,#186);
#186=COORDINATED_UNIVERSAL_TIME_OFFSET(0,0,.BEHIND.);
#187=AXIS2_PLACEMENT_3D('',#254,#206,#207);
#188=AXIS2_PLACEMENT_3D('',#255,#208,#209);
#189=AXIS2_PLACEMENT_3D('',#257,#210,#211);
#190=AXIS2_PLACEMENT_3D('',#260,#213,#214);
#191=AXIS2_PLACEMENT_3D('',#261,#215,#216);
#192=AXIS2_PLACEMENT_3D('',#263,#217,#218);
#193=AXIS2_PLACEMENT_3D('',#266,#220,#221);
#194=AXIS2_PLACEMENT_3D('',#267,#222,#223);
#195=AXIS2_PLACEMENT_3D('',#268,#224,#225);
#196=AXIS2_PLACEMENT_3D('',#269,#226,#227);
#197=AXIS2_PLACEMENT_3D('',#272,#228,#229);
#198=AXIS2_PLACEMENT_3D('',#276,#231,#232);
#199=AXIS2_PLACEMENT_3D('',#278,#234,#235);
#200=AXIS2_PLACEMENT_3D('',#284,#239,#240);
#201=AXIS2_PLACEMENT_3D('',#286,#241,#242);
#202=AXIS2_PLACEMENT_3D('',#288,#243,#244);
#203=AXIS2_PLACEMENT_3D('',#290,#246,#247);
#204=AXIS2_PLACEMENT_3D('',#293,#250,#251);
#205=AXIS2_PLACEMENT_3D('',#294,#252,#253);
#206=DIRECTION('axis',(0.,0.,1.));
#207=DIRECTION('refdir',(1.,0.,0.));
#208=DIRECTION('center_axis',(0.,0.,1.));
#209=DIRECTION('ref_axis',(-1.,0.,0.));
#210=DIRECTION('center_axis',(0.,0.,-1.));
#211=DIRECTION('ref_axis',(-1.,0.,0.));
#212=DIRECTION('',(0.,0.,-1.));
#213=DIRECTION('center_axis',(0.,0.,-1.));
#214=DIRECTION('ref_axis',(-1.,0.,0.));
#215=DIRECTION('center_axis',(0.,0.,1.));
#216=DIRECTION('ref_axis',(1.,0.,0.));
#217=DIRECTION('center_axis',(0.,0.,1.));
#218=DIRECTION('ref_axis',(1.,0.,0.));
#219=DIRECTION('',(0.,0.,-1.));
#220=DIRECTION('center_axis',(0.,0.,1.));
#221=DIRECTION('ref_axis',(1.,0.,0.));
#222=DIRECTION('center_axis',(0.,0.,1.));
#223=DIRECTION('ref_axis',(1.,0.,0.));
#224=DIRECTION('center_axis',(0.,0.,1.));
#225=DIRECTION('ref_axis',(1.,0.,0.));
#226=DIRECTION('center_axis',(0.,0.,1.));
#227=DIRECTION('ref_axis',(-1.,0.,0.));
#228=DIRECTION('center_axis',(0.,0.,-1.));
#229=DIRECTION('ref_axis',(-1.,0.,0.));
#230=DIRECTION('',(0.,0.,1.));
#231=DIRECTION('center_axis',(0.,0.,1.));
#232=DIRECTION('ref_axis',(-1.,0.,0.));
#233=DIRECTION('',(0.,0.,1.));
#234=DIRECTION('center_axis',(-0.996194698091746,0.0871557427476587,0.));
#235=DIRECTION('ref_axis',(-0.0871557427476587,-0.996194698091746,0.));
#236=DIRECTION('',(0.0871557427476587,0.996194698091746,0.));
#237=DIRECTION('',(-0.0871557427476587,-0.996194698091746,0.));
#238=DIRECTION('',(0.,0.,1.));
#239=DIRECTION('center_axis',(0.,0.,1.));
#240=DIRECTION('ref_axis',(-0.996194698091746,0.0871557427476495,0.));
#241=DIRECTION('center_axis',(0.,0.,-1.));
#242=DIRECTION('ref_axis',(-0.996194698091746,0.0871557427476495,0.));
#243=DIRECTION('center_axis',(0.,0.,1.));
#244=DIRECTION('ref_axis',(-0.996194698091746,0.0871557427476495,0.));
#245=DIRECTION('',(0.,0.,1.));
#246=DIRECTION('center_axis',(0.996194698091746,0.0871557427476585,0.));
#247=DIRECTION('ref_axis',(-0.0871557427476585,0.996194698091746,0.));
#248=DIRECTION('',(0.0871557427476585,-0.996194698091746,0.));
#249=DIRECTION('',(-0.0871557427476585,0.996194698091746,0.));
#250=DIRECTION('center_axis',(0.,0.,-1.));
#251=DIRECTION('ref_axis',(-1.,0.,0.));
#252=DIRECTION('center_axis',(0.,0.,-1.));
#253=DIRECTION('ref_axis',(-1.,0.,0.));
#254=CARTESIAN_POINT('',(0.,0.,0.));
#255=CARTESIAN_POINT('Origin',(0.,0.,0.));
#256=CARTESIAN_POINT('',(18.8,2.30233598239702E-15,3000.));
#257=CARTESIAN_POINT('Origin',(0.,0.,3000.));
#258=CARTESIAN_POINT('',(18.8,2.30233598239702E-15,0.));
#259=CARTESIAN_POINT('',(18.8,2.30233598239702E-15,0.));
#260=CARTESIAN_POINT('Origin',(0.,0.,0.));
#261=CARTESIAN_POINT('Origin',(0.,0.,0.));
#262=CARTESIAN_POINT('',(-20.,-2.44929359829471E-15,3000.));
#263=CARTESIAN_POINT('Origin',(0.,0.,3000.));
#264=CARTESIAN_POINT('',(-20.,-2.44929359829471E-15,0.));
#265=CARTESIAN_POINT('',(-20.,-2.44929359829471E-15,0.));
#266=CARTESIAN_POINT('Origin',(0.,0.,0.));
#267=CARTESIAN_POINT('Origin',(0.,0.,3000.));
#268=CARTESIAN_POINT('Origin',(0.,0.,0.));
#269=CARTESIAN_POINT('Origin',(0.,0.,0.));
#270=CARTESIAN_POINT('',(0.249999999999998,-19.9984374389601,0.));
#271=CARTESIAN_POINT('',(-0.250000000000002,-19.9984374389601,0.));
#272=CARTESIAN_POINT('Origin',(0.,0.,0.));
#273=CARTESIAN_POINT('',(0.249999999999998,-19.9984374389601,3000.));
#274=CARTESIAN_POINT('',(0.249999999999998,-19.9984374389601,0.));
#275=CARTESIAN_POINT('',(-0.250000000000002,-19.9984374389601,3000.));
#276=CARTESIAN_POINT('Origin',(0.,0.,3000.));
#277=CARTESIAN_POINT('',(-0.250000000000002,-19.9984374389601,0.));
#278=CARTESIAN_POINT('Origin',(-0.145101319504167,-18.799440034402,0.));
#279=CARTESIAN_POINT('',(-0.145101319504167,-18.799440034402,0.));
#280=CARTESIAN_POINT('',(-0.250000000000002,-19.9984374389601,0.));
#281=CARTESIAN_POINT('',(-0.145101319504167,-18.799440034402,3000.));
#282=CARTESIAN_POINT('',(-0.250000000000002,-19.9984374389601,3000.));
#283=CARTESIAN_POINT('',(-0.145101319504167,-18.799440034402,0.));
#284=CARTESIAN_POINT('Origin',(-2.31379410425258E-15,-18.8121347549213,
0.));
#285=CARTESIAN_POINT('',(0.145101319504163,-18.799440034402,0.));
#286=CARTESIAN_POINT('Origin',(-2.31379410425258E-15,-18.8121347549213,
0.));
#287=CARTESIAN_POINT('',(0.145101319504163,-18.799440034402,3000.));
#288=CARTESIAN_POINT('Origin',(-2.31379410425258E-15,-18.8121347549213,
3000.));
#289=CARTESIAN_POINT('',(0.145101319504163,-18.799440034402,0.));
#290=CARTESIAN_POINT('Origin',(0.249999999999998,-19.9984374389601,0.));
#291=CARTESIAN_POINT('',(0.145101319504163,-18.799440034402,0.));
#292=CARTESIAN_POINT('',(0.145101319504163,-18.799440034402,3000.));
#293=CARTESIAN_POINT('Origin',(-2.48065457064683E-15,-19.3332395859747,
0.));
#294=CARTESIAN_POINT('Origin',(-2.48065457064683E-15,-19.3332395859747,
3000.));
#295=UNCERTAINTY_MEASURE_WITH_UNIT(LENGTH_MEASURE(0.01),#299,
'DISTANCE_ACCURACY_VALUE',
'Maximum model space distance between geometric entities at asserted c
onnectivities');
#296=UNCERTAINTY_MEASURE_WITH_UNIT(LENGTH_MEASURE(0.01),#299,
'DISTANCE_ACCURACY_VALUE',
'Maximum model space distance between geometric entities at asserted c
onnectivities');
#297=(
GEOMETRIC_REPRESENTATION_CONTEXT(3)
GLOBAL_UNCERTAINTY_ASSIGNED_CONTEXT((#295))
GLOBAL_UNIT_ASSIGNED_CONTEXT((#299,#301,#302))
REPRESENTATION_CONTEXT('','3D')
);
#298=(
GEOMETRIC_REPRESENTATION_CONTEXT(3)
GLOBAL_UNCERTAINTY_ASSIGNED_CONTEXT((#296))
GLOBAL_UNIT_ASSIGNED_CONTEXT((#299,#301,#302))
REPRESENTATION_CONTEXT('','3D')
);
#299=(
LENGTH_UNIT()
NAMED_UNIT(*)
SI_UNIT(.MILLI.,.METRE.)
);
#300=(
LENGTH_UNIT()
NAMED_UNIT(*)
SI_UNIT(.CENTI.,.METRE.)
);
#301=(
NAMED_UNIT(*)
PLANE_ANGLE_UNIT()
SI_UNIT($,.RADIAN.)
);
#302=(
NAMED_UNIT(*)
SI_UNIT($,.STERADIAN.)
SOLID_ANGLE_UNIT()
);
#303=SHAPE_DEFINITION_REPRESENTATION(#304,#305);
#304=PRODUCT_DEFINITION_SHAPE('',$,#307);
#305=SHAPE_REPRESENTATION('',(#187),#297);
#306=PRODUCT_DEFINITION_CONTEXT('part definition',#311,'design');
#307=PRODUCT_DEFINITION('\X2\0417042D04220410\X0\.045.950.028-04',
'\X2\0417042D04220410\X0\.045.950.028 \X2\0422044004430431044B\X0\ \X2\04410442\X0\.
\X2\043E0446\X0\.',#308,#306);
#308=PRODUCT_DEFINITION_FORMATION('',$,#313);
#309=PRODUCT_RELATED_PRODUCT_CATEGORY(
'\X2\0417042D04220410\X0\.045.950.028 \X2\0422044004430431044B\X0\ \X2\04410442\X0\.
\X2\043E0446\X0\.','\X2\0417042D04220410\X0\.045.950.028 \X2\0422044004430431044B\X0\ 
\X2\04410442\X0\.\X2\043E0446\X0\.',(#313));
#310=APPLICATION_PROTOCOL_DEFINITION('international standard',
'automotive_design',2009,#311);
#311=APPLICATION_CONTEXT(
'Core Data for Automotive Mechanical Design Process');
#312=PRODUCT_CONTEXT('part definition',#311,'mechanical');
#313=PRODUCT('\X2\0417042D04220410\X0\.045.950.028-04',
'\X2\0417042D04220410\X0\.045.950.028 \X2\0422044004430431044B\X0\ \X2\04410442\X0\.
\X2\043E0446\X0\.',
'\X2\0422044004430431044B\X0\ \X2\044104420430043B044C043D044B0435\X0\ 
\X2\043E04460438043D043A043E04320430043D043D044B0435\X0\ \X2\044D043B0435043A04420440043E0441043204300440043D044B0435\X0\ 
\X2\043F0440044F043C043E0448043E0432043D044B0435\X0\ \X2\04420438043F0430\X0\ 
\X2\0422\X0\',(#312));
#314=PRESENTATION_STYLE_ASSIGNMENT((#316));
#315=PRESENTATION_STYLE_ASSIGNMENT((#317));
#316=SURFACE_STYLE_USAGE(.BOTH.,#322);
#317=SURFACE_STYLE_USAGE(.BOTH.,#323);
#318=SURFACE_STYLE_RENDERING_WITH_PROPERTIES($,#330,(#320));
#319=SURFACE_STYLE_RENDERING_WITH_PROPERTIES($,#331,(#321));
#320=SURFACE_STYLE_TRANSPARENT(0.);
#321=SURFACE_STYLE_TRANSPARENT(0.);
#322=SURFACE_SIDE_STYLE('',(#324,#318));
#323=SURFACE_SIDE_STYLE('',(#325,#319));
#324=SURFACE_STYLE_FILL_AREA(#326);
#325=SURFACE_STYLE_FILL_AREA(#327);
#326=FILL_AREA_STYLE('',(#328));
#327=FILL_AREA_STYLE('',(#329));
#328=FILL_AREA_STYLE_COLOUR('',#330);
#329=FILL_AREA_STYLE_COLOUR('',#331);
#330=COLOUR_RGB('',0.745098039215686,0.737254901960784,0.729411764705882);
#331=COLOUR_RGB('',0.270588235294118,0.270588235294118,0.270588235294118);
ENDSEC;
END-ISO-10303-21;
